ISO-10303-21;
HEADER;
FILE_DESCRIPTION (( 'STEP AP203' ),
    '1' );
FILE_NAME ('End Cap SDR11_001 117 0140 0450.step',
    '2025-01-21T09:57:23',
    ( '' ),
    ( '' ),
    'SwSTEP 2.0',
    'SolidWorks 2021',
    '' );
FILE_SCHEMA (( 'CONFIG_CONTROL_DESIGN' ));
ENDSEC;

DATA;
#1 = AXIS2_PLACEMENT_3D ( 'NONE', #169, #141, #241 ) ;
#2 = DIRECTION ( 'NONE',  ( 0.000000000000000000, 0.000000000000000000, -1.000000000000000000 ) ) ;
#3 = PERSON_AND_ORGANIZATION ( #129, #84 ) ;
#4 = DATE_AND_TIME ( #268, #105 ) ;
#5 = VERTEX_POINT ( 'NONE', #111 ) ;
#6 = APPROVAL_DATE_TIME ( #27, #238 ) ;
#7 = CALENDAR_DATE ( 2025, 21, 1 ) ;
#8 = ORIENTED_EDGE ( 'NONE', *, *, #167, .T. ) ;
#9 = APPROVAL_STATUS ( 'not_yet_approved' ) ;
#10 = VECTOR ( 'NONE', #233, 1000.000000000000000 ) ;
#11 = APPROVAL_PERSON_ORGANIZATION ( #127, #296, #82 ) ;
#12 = ORIENTED_EDGE ( 'NONE', *, *, #301, .F. ) ;
#13 = ORIENTED_EDGE ( 'NONE', *, *, #166, .F. ) ;
#14 = DIRECTION ( 'NONE',  ( -0.000000000000000000, -1.000000000000000000, -0.000000000000000000 ) ) ;
#15 = CIRCLE ( 'NONE', #159, 184.1000000000001080 ) ;
#16 = DIRECTION ( 'NONE',  ( -0.000000000000000000, -1.000000000000000000, -0.000000000000000000 ) ) ;
#17 = CARTESIAN_POINT ( 'NONE',  ( 2.755455298081544936E-14, 0.000000000000000000, 225.0000000000000284 ) ) ;
#18 = DIRECTION ( 'NONE',  ( 0.000000000000000000, 0.000000000000000000, -1.000000000000000000 ) ) ;
#19 = CIRCLE ( 'NONE', #164, 675.0000000000000000 ) ;
#20 = DIRECTION ( 'NONE',  ( -0.000000000000000000, -1.000000000000000000, -0.000000000000000000 ) ) ;
#21 = CYLINDRICAL_SURFACE ( 'NONE', #194, 224.9999999999999716 ) ;
#22 = EDGE_CURVE ( 'NONE', #26, #30, #80, .T. ) ;
#23 = VECTOR ( 'NONE', #297, 1000.000000000000000 ) ;
#24 = CIRCLE ( 'NONE', #247, 225.0000000000000284 ) ;
#25 = COORDINATED_UNIVERSAL_TIME_OFFSET ( 3, 0, .AHEAD. ) ;
#26 = VERTEX_POINT ( 'NONE', #228 ) ;
#27 = DATE_AND_TIME ( #222, #220 ) ;
#28 = VERTEX_POINT ( 'NONE', #115 ) ;
#29 = AXIS2_PLACEMENT_3D ( 'NONE', #282, #79, #173 ) ;
#30 = VERTEX_POINT ( 'NONE', #17 ) ;
#31 = PRODUCT_DEFINITION_SHAPE ( 'NONE', 'NONE',  #46 ) ;
#32 = DIRECTION ( 'NONE',  ( 1.000000000000000000, 0.000000000000000000, 0.000000000000000000 ) ) ;
#33 = AXIS2_PLACEMENT_3D ( 'NONE', #138, #256, #294 ) ;
#34 = TOROIDAL_SURFACE ( 'NONE', #240, -6.476995540178632993, 634.1020044179956585 ) ;
#35 = CIRCLE ( 'NONE', #109, 224.9999999999999432 ) ;
#36 = ORIENTED_EDGE ( 'NONE', *, *, #54, .T. ) ;
#37 = CARTESIAN_POINT ( 'NONE',  ( -7.932031856371444834E-16, -404.7857147600283270, -6.476995540178632993 ) ) ;
#38 = EDGE_LOOP ( 'NONE', ( #86, #286, #179 ) ) ;
#39 = EDGE_CURVE ( 'NONE', #5, #152, #276, .T. ) ;
#40 = VERTEX_POINT ( 'NONE', #137 ) ;
#41 = CLOSED_SHELL ( 'NONE', ( #192, #291, #255, #204, #51, #174, #201, #295, #67 ) ) ;
#42 = APPROVAL_PERSON_ORGANIZATION ( #148, #120, #177 ) ;
#43 = DIRECTION ( 'NONE',  ( 0.000000000000000000, 0.000000000000000000, -1.000000000000000000 ) ) ;
#44 = APPLICATION_CONTEXT ( 'configuration controlled 3d designs of mechanical parts and assemblies' ) ;
#45 = CARTESIAN_POINT ( 'NONE',  ( 0.000000000000000000, 0.000000000000000000, -184.1000000000000796 ) ) ;
#46 = PRODUCT_DEFINITION ( 'BÝLÝNMEYEN', '', #146, #126 ) ;
#47 = CARTESIAN_POINT ( 'NONE',  ( 0.000000000000000000, 0.000000000000000000, 0.000000000000000000 ) ) ;
#48 = AXIS2_PLACEMENT_3D ( 'NONE', #53, #78, #216 ) ;
#49 = CARTESIAN_POINT ( 'NONE',  ( 2.755455298081544304E-14, 229.2832093607586046, 224.9999999999999432 ) ) ;
#50 = DIRECTION ( 'NONE',  ( -1.000000000000000000, 0.000000000000000000, 0.000000000000000000 ) ) ;
#51 = ADVANCED_FACE ( 'NONE', ( #303 ), #160, .F. ) ;
#52 = CC_DESIGN_PERSON_AND_ORGANIZATION_ASSIGNMENT ( #56, #103, ( #83 ) ) ;
#53 = CARTESIAN_POINT ( 'NONE',  ( 0.000000000000000000, 0.000000000000000000, 0.000000000000000000 ) ) ;
#54 = EDGE_CURVE ( 'NONE', #287, #26, #71, .T. ) ;
#55 = EDGE_LOOP ( 'NONE', ( #88, #210 ) ) ;
#56 = PERSON_AND_ORGANIZATION ( #129, #84 ) ;
#57 = EDGE_LOOP ( 'NONE', ( #203, #63, #131, #158 ) ) ;
#58 = APPROVAL_STATUS ( 'not_yet_approved' ) ;
#59 = EDGE_LOOP ( 'NONE', ( #65, #272, #226 ) ) ;
#60 = CIRCLE ( 'NONE', #145, 224.9999999999999432 ) ;
#61 = TOROIDAL_SURFACE ( 'NONE', #75, -6.476995540178632993, 675.0000000000000000 ) ;
#62 = DATE_AND_TIME ( #7, #277 ) ;
#63 = ORIENTED_EDGE ( 'NONE', *, *, #305, .T. ) ;
#64 = PERSON_AND_ORGANIZATION ( #129, #84 ) ;
#65 = ORIENTED_EDGE ( 'NONE', *, *, #289, .F. ) ;
#66 = EDGE_CURVE ( 'NONE', #157, #212, #153, .T. ) ;
#67 = ADVANCED_FACE ( 'NONE', ( #188 ), #34, .F. ) ;
#68 = CARTESIAN_POINT ( 'NONE',  ( 1.734723475976807094E-15, 270.1832093607585534, 0.000000000000000000 ) ) ;
#69 = CC_DESIGN_APPROVAL ( #120, ( #46 ) ) ;
#70 = EDGE_LOOP ( 'NONE', ( #180, #267, #36, #13 ) ) ;
#71 = LINE ( 'NONE', #229, #23 ) ;
#72 = EDGE_CURVE ( 'NONE', #212, #287, #60, .T. ) ;
#73 = ORIENTED_EDGE ( 'NONE', *, *, #144, .T. ) ;
#74 = EDGE_LOOP ( 'NONE', ( #110, #214, #8 ) ) ;
#75 = AXIS2_PLACEMENT_3D ( 'NONE', #142, #190, #259 ) ;
#76 = DIRECTION ( 'NONE',  ( 0.000000000000000000, 0.000000000000000000, -1.000000000000000000 ) ) ;
#77 = EDGE_CURVE ( 'NONE', #5, #28, #95, .T. ) ;
#78 = DIRECTION ( 'NONE',  ( -0.000000000000000000, -1.000000000000000000, -0.000000000000000000 ) ) ;
#79 = DIRECTION ( 'NONE',  ( 1.000000000000000000, 0.000000000000000000, -1.224646799147353207E-16 ) ) ;
#80 = CIRCLE ( 'NONE', #246, 225.0000000000000284 ) ;
#81 = FACE_OUTER_BOUND ( 'NONE', #269, .T. ) ;
#82 = APPROVAL_ROLE ( '' ) ;
#83 = SECURITY_CLASSIFICATION ( '', '', #224 ) ;
#84 = ORGANIZATION ( 'BELÝRTÝLMEMÝÞ', 'BELÝRTÝLMEMÝÞ', '' ) ;
#85 = DATE_AND_TIME ( #285, #124 ) ;
#86 = ORIENTED_EDGE ( 'NONE', *, *, #66, .F. ) ;
#87 = COORDINATED_UNIVERSAL_TIME_OFFSET ( 3, 0, .AHEAD. ) ;
#88 = ORIENTED_EDGE ( 'NONE', *, *, #22, .T. ) ;
#89 = PERSON_AND_ORGANIZATION_ROLE ( 'creator' ) ;
#90 = EDGE_LOOP ( 'NONE', ( #206, #161, #200, #73 ) ) ;
#91 = CC_DESIGN_PERSON_AND_ORGANIZATION_ASSIGNMENT ( #181, #130, ( #146 ) ) ;
#92 = DIRECTION ( 'NONE',  ( -0.000000000000000000, -1.000000000000000000, -0.000000000000000000 ) ) ;
#93 = CC_DESIGN_PERSON_AND_ORGANIZATION_ASSIGNMENT ( #264, #292, ( #133 ) ) ;
#94 = CARTESIAN_POINT ( 'NONE',  ( 0.000000000000000000, -404.7857147600283270, 0.000000000000000000 ) ) ;
#95 = LINE ( 'NONE', #187, #10 ) ;
#96 = CARTESIAN_POINT ( 'NONE',  ( 0.000000000000000000, 200.0000000000000568, -184.1000000000001080 ) ) ;
#97 = FACE_OUTER_BOUND ( 'NONE', #182, .T. ) ;
#98 = DIRECTION ( 'NONE',  ( 0.000000000000000000, 0.000000000000000000, -1.000000000000000000 ) ) ;
#99 = CYLINDRICAL_SURFACE ( 'NONE', #171, 224.9999999999999716 ) ;
#100 = CYLINDRICAL_SURFACE ( 'NONE', #48, 184.1000000000000796 ) ;
#101 = TOROIDAL_SURFACE ( 'NONE', #185, -6.476995540178632993, 634.1020044179956585 ) ;
#102 = DIRECTION ( 'NONE',  ( 0.000000000000000000, 0.000000000000000000, -1.000000000000000000 ) ) ;
#103 = PERSON_AND_ORGANIZATION_ROLE ( 'classification_officer' ) ;
#104 = ORIENTED_EDGE ( 'NONE', *, *, #77, .T. ) ;
#105 = LOCAL_TIME ( 12, 57, 23.00000000000000000, #290 ) ;
#106 = SHAPE_DEFINITION_REPRESENTATION ( #31, #147 ) ;
#107 = APPROVAL_DATE_TIME ( #62, #120 ) ;
#108 = COORDINATED_UNIVERSAL_TIME_OFFSET ( 3, 0, .AHEAD. ) ;
#109 = AXIS2_PLACEMENT_3D ( 'NONE', #263, #217, #18 ) ;
#110 = ORIENTED_EDGE ( 'NONE', *, *, #244, .F. ) ;
#111 = CARTESIAN_POINT ( 'NONE',  ( 2.254574757230278558E-14, 200.0000000000000568, 184.1000000000001080 ) ) ;
#112 = CC_DESIGN_DATE_AND_TIME_ASSIGNMENT ( #150, #270, ( #83 ) ) ;
#113 = ORIENTED_EDGE ( 'NONE', *, *, #300, .F. ) ;
#114 = CIRCLE ( 'NONE', #29, 634.1020044179956585 ) ;
#115 = CARTESIAN_POINT ( 'NONE',  ( 2.254574757230277927E-14, 0.000000000000000000, 184.1000000000000512 ) ) ;
#116 = EDGE_LOOP ( 'NONE', ( #293, #113 ) ) ;
#117 = DIRECTION ( 'NONE',  ( 0.000000000000000000, 0.000000000000000000, -1.000000000000000000 ) ) ;
#118 = FACE_OUTER_BOUND ( 'NONE', #59, .T. ) ;
#119 = LINE ( 'NONE', #237, #176 ) ;
#120 = APPROVAL ( #58, 'BELÝRTÝLMEMÝÞ' ) ;
#121 = DIRECTION ( 'NONE',  ( -0.000000000000000000, -1.000000000000000000, -0.000000000000000000 ) ) ;
#122 = UNCERTAINTY_MEASURE_WITH_UNIT (LENGTH_MEASURE( 1.000000000000000082E-05 ), #218, 'distance_accuracy_value', 'NONE');
#123 = FACE_OUTER_BOUND ( 'NONE', #38, .T. ) ;
#124 = LOCAL_TIME ( 12, 57, 23.00000000000000000, #87 ) ;
#125 = CARTESIAN_POINT ( 'NONE',  ( 0.000000000000000000, 0.000000000000000000, 0.000000000000000000 ) ) ;
#126 = DESIGN_CONTEXT ( 'detailed design', #44, 'design' ) ;
#127 = PERSON_AND_ORGANIZATION ( #129, #84 ) ;
#128 = APPLICATION_CONTEXT ( 'configuration controlled 3d designs of mechanical parts and assemblies' ) ;
#129 = PERSON ( 'BELÝRTÝLMEMÝÞ', 'BELÝRTÝLMEMÝÞ', 'BELÝRTÝLMEMÝÞ', ('BELÝRTÝLMEMÝÞ'), ('BELÝRTÝLMEMÝÞ'), ('BELÝRTÝLMEMÝÞ') ) ;
#130 = PERSON_AND_ORGANIZATION_ROLE ( 'creator' ) ;
#131 = ORIENTED_EDGE ( 'NONE', *, *, #22, .F. ) ;
#132 = CC_DESIGN_SECURITY_CLASSIFICATION ( #83, ( #146 ) ) ;
#133 = PRODUCT ( 'End Cap SDR11_001 117 0140 0450', 'End Cap SDR11_001 117 0140 0450', '', ( #198 ) ) ;
#134 = ORIENTED_EDGE ( 'NONE', *, *, #208, .F. ) ;
#135 = ORIENTED_EDGE ( 'NONE', *, *, #265, .F. ) ;
#136 = DIRECTION ( 'NONE',  ( 1.000000000000000000, 0.000000000000000000, -1.224646799147353207E-16 ) ) ;
#137 = CARTESIAN_POINT ( 'NONE',  ( 0.000000000000000000, 0.000000000000000000, -184.1000000000000512 ) ) ;
#138 = CARTESIAN_POINT ( 'NONE',  ( 0.000000000000000000, 200.0000000000000568, 0.000000000000000000 ) ) ;
#139 = CARTESIAN_POINT ( 'NONE',  ( 0.000000000000000000, 200.0000000000000568, 0.000000000000000000 ) ) ;
#140 = DIRECTION ( 'NONE',  ( -0.000000000000000000, -1.000000000000000000, -0.000000000000000000 ) ) ;
#141 = DIRECTION ( 'NONE',  ( -0.000000000000000000, -1.000000000000000000, -0.000000000000000000 ) ) ;
#142 = CARTESIAN_POINT ( 'NONE',  ( 0.000000000000000000, -404.7857147600283270, 0.000000000000000000 ) ) ;
#143 = DIRECTION ( 'NONE',  ( 0.000000000000000000, 0.000000000000000000, 1.000000000000000000 ) ) ;
#144 = EDGE_CURVE ( 'NONE', #40, #28, #189, .T. ) ;
#145 = AXIS2_PLACEMENT_3D ( 'NONE', #230, #14, #299 ) ;
#146 = PRODUCT_DEFINITION_FORMATION_WITH_SPECIFIED_SOURCE ( 'HERHANGÝ', '', #133, .NOT_KNOWN. ) ;
#147 = ADVANCED_BREP_SHAPE_REPRESENTATION ( 'End Cap SDR11_001 117 0140 0450', ( #288, #154 ), #298 ) ;
#148 = PERSON_AND_ORGANIZATION ( #129, #84 ) ;
#149 = VERTEX_POINT ( 'NONE', #213 ) ;
#150 = DATE_AND_TIME ( #178, #251 ) ;
#151 =( NAMED_UNIT ( * ) PLANE_ANGLE_UNIT ( ) SI_UNIT ( $, .RADIAN. ) );
#152 = VERTEX_POINT ( 'NONE', #96 ) ;
#153 = CIRCLE ( 'NONE', #231, 675.0000000000000000 ) ;
#154 = AXIS2_PLACEMENT_3D ( 'NONE', #205, #243, #32 ) ;
#155 = PERSON_AND_ORGANIZATION ( #129, #84 ) ;
#156 = APPROVAL_STATUS ( 'not_yet_approved' ) ;
#157 = VERTEX_POINT ( 'NONE', #68 ) ;
#158 = ORIENTED_EDGE ( 'NONE', *, *, #54, .F. ) ;
#159 = AXIS2_PLACEMENT_3D ( 'NONE', #139, #234, #117 ) ;
#160 = CYLINDRICAL_SURFACE ( 'NONE', #163, 184.1000000000000796 ) ;
#161 = ORIENTED_EDGE ( 'NONE', *, *, #167, .F. ) ;
#162 = DIRECTION ( 'NONE',  ( 0.000000000000000000, 0.000000000000000000, -1.000000000000000000 ) ) ;
#163 = AXIS2_PLACEMENT_3D ( 'NONE', #184, #16, #253 ) ;
#164 = AXIS2_PLACEMENT_3D ( 'NONE', #304, #219, #262 ) ;
#165 = CARTESIAN_POINT ( 'NONE',  ( 0.000000000000000000, 0.000000000000000000, 0.000000000000000000 ) ) ;
#166 = EDGE_CURVE ( 'NONE', #30, #26, #24, .T. ) ;
#167 = EDGE_CURVE ( 'NONE', #152, #5, #15, .T. ) ;
#168 = PLANE ( 'NONE',  #211 ) ;
#169 = CARTESIAN_POINT ( 'NONE',  ( 0.000000000000000000, -404.7857147600283270, 0.000000000000000000 ) ) ;
#170 = FACE_OUTER_BOUND ( 'NONE', #57, .T. ) ;
#171 = AXIS2_PLACEMENT_3D ( 'NONE', #306, #121, #2 ) ;
#172 = DIRECTION ( 'NONE',  ( -0.000000000000000000, -1.000000000000000000, -0.000000000000000000 ) ) ;
#173 = DIRECTION ( 'NONE',  ( -1.224646799147353207E-16, 0.000000000000000000, -1.000000000000000000 ) ) ;
#174 = ADVANCED_FACE ( 'NONE', ( #235, #191 ), #168, .T. ) ;
#175 = COORDINATED_UNIVERSAL_TIME_OFFSET ( 3, 0, .AHEAD. ) ;
#176 = VECTOR ( 'NONE', #193, 1000.000000000000000 ) ;
#177 = APPROVAL_ROLE ( '' ) ;
#178 = CALENDAR_DATE ( 2025, 21, 1 ) ;
#179 = ORIENTED_EDGE ( 'NONE', *, *, #72, .F. ) ;
#180 = ORIENTED_EDGE ( 'NONE', *, *, #305, .F. ) ;
#181 = PERSON_AND_ORGANIZATION ( #129, #84 ) ;
#182 = EDGE_LOOP ( 'NONE', ( #134, #250, #135 ) ) ;
#183 = DIRECTION ( 'NONE',  ( -0.000000000000000000, -1.000000000000000000, -0.000000000000000000 ) ) ;
#184 = CARTESIAN_POINT ( 'NONE',  ( 0.000000000000000000, 0.000000000000000000, 0.000000000000000000 ) ) ;
#185 = AXIS2_PLACEMENT_3D ( 'NONE', #260, #140, #307 ) ;
#186 = DIRECTION ( 'NONE',  ( -0.000000000000000000, -1.000000000000000000, -0.000000000000000000 ) ) ;
#187 = CARTESIAN_POINT ( 'NONE',  ( 2.254574757230277927E-14, 0.000000000000000000, 184.1000000000000796 ) ) ;
#188 = FACE_OUTER_BOUND ( 'NONE', #74, .T. ) ;
#189 = CIRCLE ( 'NONE', #199, 184.1000000000000512 ) ;
#190 = DIRECTION ( 'NONE',  ( -0.000000000000000000, -1.000000000000000000, -0.000000000000000000 ) ) ;
#191 = FACE_BOUND ( 'NONE', #116, .T. ) ;
#192 = ADVANCED_FACE ( 'NONE', ( #118 ), #101, .F. ) ;
#193 = DIRECTION ( 'NONE',  ( -0.000000000000000000, -1.000000000000000000, -0.000000000000000000 ) ) ;
#194 = AXIS2_PLACEMENT_3D ( 'NONE', #47, #172, #102 ) ;
#195 = CARTESIAN_POINT ( 'NONE',  ( 0.000000000000000000, -404.7857147600283270, 6.476995540178632993 ) ) ;
#196 = CC_DESIGN_DATE_AND_TIME_ASSIGNMENT ( #4, #248, ( #46 ) ) ;
#197 = APPROVAL_ROLE ( '' ) ;
#198 = MECHANICAL_CONTEXT ( 'NONE', #128, 'mechanical' ) ;
#199 = AXIS2_PLACEMENT_3D ( 'NONE', #165, #183, #162 ) ;
#200 = ORIENTED_EDGE ( 'NONE', *, *, #301, .T. ) ;
#201 = ADVANCED_FACE ( 'NONE', ( #279 ), #99, .T. ) ;
#202 = PERSON_AND_ORGANIZATION_ROLE ( 'design_supplier' ) ;
#203 = ORIENTED_EDGE ( 'NONE', *, *, #265, .T. ) ;
#204 = ADVANCED_FACE ( 'NONE', ( #81 ), #100, .F. ) ;
#205 = CARTESIAN_POINT ( 'NONE',  ( 0.000000000000000000, 0.000000000000000000, 0.000000000000000000 ) ) ;
#206 = ORIENTED_EDGE ( 'NONE', *, *, #77, .F. ) ;
#207 = CIRCLE ( 'NONE', #215, 634.1020044179956585 ) ;
#208 = EDGE_CURVE ( 'NONE', #157, #287, #19, .T. ) ;
#209 = CC_DESIGN_PERSON_AND_ORGANIZATION_ASSIGNMENT ( #3, #202, ( #146 ) ) ;
#210 = ORIENTED_EDGE ( 'NONE', *, *, #166, .T. ) ;
#211 = AXIS2_PLACEMENT_3D ( 'NONE', #239, #281, #76 ) ;
#212 = VERTEX_POINT ( 'NONE', #49 ) ;
#213 = CARTESIAN_POINT ( 'NONE',  ( -3.071130565874361996E-14, 229.2832093607586046, 0.000000000000000000 ) ) ;
#214 = ORIENTED_EDGE ( 'NONE', *, *, #289, .T. ) ;
#215 = AXIS2_PLACEMENT_3D ( 'NONE', #195, #50, #143 ) ;
#216 = DIRECTION ( 'NONE',  ( 0.000000000000000000, 0.000000000000000000, -1.000000000000000000 ) ) ;
#217 = DIRECTION ( 'NONE',  ( -0.000000000000000000, -1.000000000000000000, -0.000000000000000000 ) ) ;
#218 =( LENGTH_UNIT ( ) NAMED_UNIT ( * ) SI_UNIT ( .MILLI., .METRE. ) );
#219 = DIRECTION ( 'NONE',  ( -1.000000000000000000, 0.000000000000000000, 0.000000000000000000 ) ) ;
#220 = LOCAL_TIME ( 12, 57, 23.00000000000000000, #175 ) ;
#221 = CARTESIAN_POINT ( 'NONE',  ( 0.000000000000000000, 229.2832093607586046, -224.9999999999999432 ) ) ;
#222 = CALENDAR_DATE ( 2025, 21, 1 ) ;
#223 = ORIENTED_EDGE ( 'NONE', *, *, #39, .F. ) ;
#224 = SECURITY_CLASSIFICATION_LEVEL ( 'unclassified' ) ;
#225 = AXIS2_PLACEMENT_3D ( 'NONE', #125, #278, #98 ) ;
#226 = ORIENTED_EDGE ( 'NONE', *, *, #39, .T. ) ;
#227 = CIRCLE ( 'NONE', #225, 184.1000000000000512 ) ;
#228 = CARTESIAN_POINT ( 'NONE',  ( 0.000000000000000000, 0.000000000000000000, -225.0000000000000284 ) ) ;
#229 = CARTESIAN_POINT ( 'NONE',  ( 0.000000000000000000, 0.000000000000000000, -224.9999999999999716 ) ) ;
#230 = CARTESIAN_POINT ( 'NONE',  ( 0.000000000000000000, 229.2832093607586046, 0.000000000000000000 ) ) ;
#231 = AXIS2_PLACEMENT_3D ( 'NONE', #37, #136, #271 ) ;
#232 = APPROVAL_PERSON_ORGANIZATION ( #64, #238, #197 ) ;
#233 = DIRECTION ( 'NONE',  ( -0.000000000000000000, -1.000000000000000000, -0.000000000000000000 ) ) ;
#234 = DIRECTION ( 'NONE',  ( -0.000000000000000000, -1.000000000000000000, -0.000000000000000000 ) ) ;
#235 = FACE_OUTER_BOUND ( 'NONE', #55, .T. ) ;
#236 = LINE ( 'NONE', #45, #280 ) ;
#237 = CARTESIAN_POINT ( 'NONE',  ( 2.755455298081544620E-14, 0.000000000000000000, 224.9999999999999716 ) ) ;
#238 = APPROVAL ( #156, 'BELÝRTÝLMEMÝÞ' ) ;
#239 = CARTESIAN_POINT ( 'NONE',  ( 184.1000000000000512, 0.000000000000000000, 0.000000000000000000 ) ) ;
#240 = AXIS2_PLACEMENT_3D ( 'NONE', #94, #186, #273 ) ;
#241 = DIRECTION ( 'NONE',  ( 0.000000000000000000, 0.000000000000000000, -1.000000000000000000 ) ) ;
#242 =( NAMED_UNIT ( * ) SI_UNIT ( $, .STERADIAN. ) SOLID_ANGLE_UNIT ( ) );
#243 = DIRECTION ( 'NONE',  ( 0.000000000000000000, 0.000000000000000000, 1.000000000000000000 ) ) ;
#244 = EDGE_CURVE ( 'NONE', #149, #5, #114, .T. ) ;
#245 = APPLICATION_PROTOCOL_DEFINITION ( 'international standard', 'config_control_design', 1994, #128 ) ;
#246 = AXIS2_PLACEMENT_3D ( 'NONE', #274, #92, #254 ) ;
#247 = AXIS2_PLACEMENT_3D ( 'NONE', #275, #257, #43 ) ;
#248 = DATE_TIME_ROLE ( 'creation_date' ) ;
#249 = APPLICATION_PROTOCOL_DEFINITION ( 'international standard', 'config_control_design', 1994, #44 ) ;
#250 = ORIENTED_EDGE ( 'NONE', *, *, #66, .T. ) ;
#251 = LOCAL_TIME ( 12, 57, 23.00000000000000000, #108 ) ;
#252 = CC_DESIGN_APPROVAL ( #296, ( #146 ) ) ;
#253 = DIRECTION ( 'NONE',  ( 0.000000000000000000, 0.000000000000000000, -1.000000000000000000 ) ) ;
#254 = DIRECTION ( 'NONE',  ( 0.000000000000000000, 0.000000000000000000, -1.000000000000000000 ) ) ;
#255 = ADVANCED_FACE ( 'NONE', ( #170 ), #21, .T. ) ;
#256 = DIRECTION ( 'NONE',  ( -0.000000000000000000, -1.000000000000000000, -0.000000000000000000 ) ) ;
#257 = DIRECTION ( 'NONE',  ( -0.000000000000000000, -1.000000000000000000, -0.000000000000000000 ) ) ;
#258 = CC_DESIGN_PERSON_AND_ORGANIZATION_ASSIGNMENT ( #155, #89, ( #46 ) ) ;
#259 = DIRECTION ( 'NONE',  ( 0.000000000000000000, 0.000000000000000000, -1.000000000000000000 ) ) ;
#260 = CARTESIAN_POINT ( 'NONE',  ( 0.000000000000000000, -404.7857147600283270, 0.000000000000000000 ) ) ;
#261 = CC_DESIGN_APPROVAL ( #238, ( #83 ) ) ;
#262 = DIRECTION ( 'NONE',  ( 0.000000000000000000, 0.000000000000000000, 1.000000000000000000 ) ) ;
#263 = CARTESIAN_POINT ( 'NONE',  ( 0.000000000000000000, 229.2832093607586046, 0.000000000000000000 ) ) ;
#264 = PERSON_AND_ORGANIZATION ( #129, #84 ) ;
#265 = EDGE_CURVE ( 'NONE', #287, #212, #35, .T. ) ;
#266 = APPROVAL_DATE_TIME ( #85, #296 ) ;
#267 = ORIENTED_EDGE ( 'NONE', *, *, #72, .T. ) ;
#268 = CALENDAR_DATE ( 2025, 21, 1 ) ;
#269 = EDGE_LOOP ( 'NONE', ( #223, #104, #302, #12 ) ) ;
#270 = DATE_TIME_ROLE ( 'classification_date' ) ;
#271 = DIRECTION ( 'NONE',  ( -1.224646799147353207E-16, 0.000000000000000000, -1.000000000000000000 ) ) ;
#272 = ORIENTED_EDGE ( 'NONE', *, *, #244, .T. ) ;
#273 = DIRECTION ( 'NONE',  ( 0.000000000000000000, 0.000000000000000000, -1.000000000000000000 ) ) ;
#274 = CARTESIAN_POINT ( 'NONE',  ( 0.000000000000000000, 0.000000000000000000, 0.000000000000000000 ) ) ;
#275 = CARTESIAN_POINT ( 'NONE',  ( 0.000000000000000000, 0.000000000000000000, 0.000000000000000000 ) ) ;
#276 = CIRCLE ( 'NONE', #33, 184.1000000000001080 ) ;
#277 = LOCAL_TIME ( 12, 57, 23.00000000000000000, #25 ) ;
#278 = DIRECTION ( 'NONE',  ( -0.000000000000000000, -1.000000000000000000, -0.000000000000000000 ) ) ;
#279 = FACE_OUTER_BOUND ( 'NONE', #70, .T. ) ;
#280 = VECTOR ( 'NONE', #20, 1000.000000000000000 ) ;
#281 = DIRECTION ( 'NONE',  ( 0.000000000000000000, -1.000000000000000000, -0.000000000000000000 ) ) ;
#282 = CARTESIAN_POINT ( 'NONE',  ( -7.932031856371444834E-16, -404.7857147600283270, -6.476995540178632993 ) ) ;
#283 = PRODUCT_RELATED_PRODUCT_CATEGORY ( 'detail', '', ( #133 ) ) ;
#284 = TOROIDAL_SURFACE ( 'NONE', #1, -6.476995540178632993, 675.0000000000000000 ) ;
#285 = CALENDAR_DATE ( 2025, 21, 1 ) ;
#286 = ORIENTED_EDGE ( 'NONE', *, *, #208, .T. ) ;
#287 = VERTEX_POINT ( 'NONE', #221 ) ;
#288 = MANIFOLD_SOLID_BREP ( 'Döndür1', #41 ) ;
#289 = EDGE_CURVE ( 'NONE', #149, #152, #207, .T. ) ;
#290 = COORDINATED_UNIVERSAL_TIME_OFFSET ( 3, 0, .AHEAD. ) ;
#291 = ADVANCED_FACE ( 'NONE', ( #97 ), #61, .T. ) ;
#292 = PERSON_AND_ORGANIZATION_ROLE ( 'design_owner' ) ;
#293 = ORIENTED_EDGE ( 'NONE', *, *, #144, .F. ) ;
#294 = DIRECTION ( 'NONE',  ( 0.000000000000000000, 0.000000000000000000, -1.000000000000000000 ) ) ;
#295 = ADVANCED_FACE ( 'NONE', ( #123 ), #284, .T. ) ;
#296 = APPROVAL ( #9, 'BELÝRTÝLMEMÝÞ' ) ;
#297 = DIRECTION ( 'NONE',  ( -0.000000000000000000, -1.000000000000000000, -0.000000000000000000 ) ) ;
#298 =( GEOMETRIC_REPRESENTATION_CONTEXT ( 3 ) GLOBAL_UNCERTAINTY_ASSIGNED_CONTEXT ( ( #122 ) ) GLOBAL_UNIT_ASSIGNED_CONTEXT ( ( #218, #151, #242 ) ) REPRESENTATION_CONTEXT ( 'NONE', 'WORKASPACE' ) );
#299 = DIRECTION ( 'NONE',  ( 0.000000000000000000, 0.000000000000000000, -1.000000000000000000 ) ) ;
#300 = EDGE_CURVE ( 'NONE', #28, #40, #227, .T. ) ;
#301 = EDGE_CURVE ( 'NONE', #152, #40, #236, .T. ) ;
#302 = ORIENTED_EDGE ( 'NONE', *, *, #300, .T. ) ;
#303 = FACE_OUTER_BOUND ( 'NONE', #90, .T. ) ;
#304 = CARTESIAN_POINT ( 'NONE',  ( 0.000000000000000000, -404.7857147600283270, 6.476995540178632993 ) ) ;
#305 = EDGE_CURVE ( 'NONE', #212, #30, #119, .T. ) ;
#306 = CARTESIAN_POINT ( 'NONE',  ( 0.000000000000000000, 0.000000000000000000, 0.000000000000000000 ) ) ;
#307 = DIRECTION ( 'NONE',  ( 0.000000000000000000, 0.000000000000000000, -1.000000000000000000 ) ) ;
ENDSEC;
END-ISO-10303-21;
